Количество артистов: 43,846 Количество текстов песен: 642,600


Тексты песен выберете букву:
1 - 2 - 3 - 4 - 5 - 6 - 7 - 8 - 9 A B C D E F G H I J K L M N O P Q R S T U V W X Y Z    А Б В Г Д Е Ё Ж З И Й К Л М Н О П Р С Т У Ф Х Ц Ч Ш Щ Ъ Ы Ь Э Ю Я

Галлерея Знаменитостей выберете букву:
A B C D E F G H I J K L M N O P Q R S T U V W X Y Z    А Б В Г Д Е Ё Ж З И Й К Л М Н О П Р С Т У Ф Х Ц Ч Ш Щ Ъ Ы Ь Э Ю Я



фотография creta bourzia

Название :

maggot pride | текст песни и табы (аккорды) для бас гитары и Mp3

Данные: текст песни / слова песни

Жанры :    math rock   post-punk   post hardcore   math-rock   post something   math rock   post-punk   post hardcore   math-rock   post something

Видео: creta bourzia -  maggot pride | текст песни и табы (аккорды) для бас гитары и Mp3  

song : maggot pride
band : creta bourzia
album : memories of earth
tabbed by : matt ross (apollyon365@home.com)

BADG tuning

:10
G:-----------------------------------------|
D:-----------------------------------------|
A:-----------------------------------------| x2
B:-12p11-11-11-10h11-11-11--11-10-5/-1-1-2-|

:24
G:-------------------------------------------|
D:-------------------------------------------|
A:-------------------------17h18p17-13-------| x2
B:-12p11-11-11-10h11-11-11-------------1-1-2-|

:38
G:-----------------------------------------|-------------------------------------------|
D:-----------------------------------------|-------------------------------------------|
A:-----------------------------------------|-------------------------17h18p17-13-------|
B:-12p11-11-11-10h11-11-11--11-10-5/-1-1-2-|-12p11-11-11-10h11-11-11-------------1-1-2-|

:52
G:---------------------------------------------------|
D:---------------------------------------------------|
A:---------------------------------------------4---4-| x2
B:-2-2-5-5-9-9-11-14p12-11/2-2-6p4-2-6p4-2---2---2---|

1:20 _________
G:----------------------------| |
D:----------------------------| |
A:----------------------------| |
B:-2/6-6--2/6-6--2/6-6--2/6-6-| |
|----repeat x4
1:23 |
G:---------------| |
D:---------------| |
A:-------4--4/---| x3 |
B:-2-22-6-----9-| |
_________|

2:05
G:----------------------------|
D:----------------------------|
A:----------------------------|
B:-2/6-6--2/6-6--2/6-6--2/6-6-|

2:08 2:33
G:------------------------------|------------------------------------|
D:------------------------------|------------------------------------|
A:------------------------------|---------4---------4---------4-33---| x6
B:-2-----2-2------2-2-------2-2-|-0-2/4h6---0-2/4h6---0-2/4h6------2-|

2:57
G:--------------------|
D:--------------------|
A:----------------433-| x4
B:-2-2222-2222-222----|

3:14
G:-----------------------------------|
D:-----------------------------------| this is played softly
A:-----------4---------4---------433-| x6
B:-2-0-2/4h6---0-2/4h6---0-2/4h6-----|

3:40
G:--------------------------------|
D:--------------------------------|
A:----------------------------433-| x10
B:-2h4-6h2--2h4-6h2--2h4-6h2------|

4:20
G:----------------------|
D:----------------------|
A:----------------433/0-| long slide
B:-2-2222-2222-222------|
Похожие исполнители:
Фото Brass Knuckles for Tough Guys
Brass Knuckles for Tough Guys
Фото Thumbnail
Thumbnail
Фото Drill for Absentee
Drill for Absentee
Фото Hurl
Hurl
Фото Keleton DMD
Keleton DMD
Фото Brass Knuckles for Tough Guys
Brass Knuckles for Tough Guys
Фото Thumbnail
Thumbnail
Фото Drill for Absentee
Drill for Absentee
Фото Hurl
Hurl
Фото Keleton DMD
Keleton DMD

Рейтинг

Другие тексты песен исполнителя creta bourzia :


Опубликовать в блоге/дневнике/жж (html-код)


Опубликовать на форуме (bb-код)


Прямая ссылка на эту страницу