Количество артистов: 43,846 Количество текстов песен: 642,600


Тексты песен выберете букву:
1 - 2 - 3 - 4 - 5 - 6 - 7 - 8 - 9 A B C D E F G H I J K L M N O P Q R S T U V W X Y Z    А Б В Г Д Е Ё Ж З И Й К Л М Н О П Р С Т У Ф Х Ц Ч Ш Щ Ъ Ы Ь Э Ю Я

Галлерея Знаменитостей выберете букву:
A B C D E F G H I J K L M N O P Q R S T U V W X Y Z    А Б В Г Д Е Ё Ж З И Й К Л М Н О П Р С Т У Ф Х Ц Ч Ш Щ Ъ Ы Ь Э Ю Я



фотография Millencolin

Название :

bullion3 | текст песни и табы (аккорды) для гитары и Mp3

Данные: текст песни / слова песни

Жанры :    punk rock   punk   skate punk   swedish   rock

Видео: Millencolin -  bullion3 | текст песни и табы (аккорды) для гитары и Mp3  

Artist- Millencolin
Album- Life on a Plate (and Punk-o-rama 2)
tabbed by- Jamie Dudley

The other version on this site was good but wrong, this is more right.

^^^= palm muted
h= hammer on
p= pull off

play this low volume before the song begins, i don`t know how many times
e-|--------15-14----------------------|
B-|--15-----------15------------------|
G-|-----14-----------14---------------|
D-|-----------------------------------|
A-|-----------------------------------|
E-|-----------------------------------|

intro- x2
e|-------------------|
B|-------------------|
G|-7-----------------|
D|-7-7-5----9-5-7----|
A|-5-7-5----9-5-7----|
E|---5-3----7-3-5----|

intro part two- x2
e|-----------------------------|
B|-----------------------------|
G|-7---------------------------|
D|-7-7-5--5-5-5---9-5-7--7-7-7-|
A|-5-7-5--5-5-5---9-5-7--7-7-7-|
E|---5-3--3-3-3---7-3-5--5-5-5-|
^^^^^ ^^^^^

verse- x2 all palm muted ( exept first chord every change)
e|---------------|-----------------|-----------------|-----------------|
B|---------------|-----------------|-----------------|-----------------|
G|-7-7-7-7-7-7-7-|-----------------|-----------------|-----------------|
D|-7-7-7-7-7-7-7-|-7-7-7-7-7-7-7-7-|-5-5-5-5-5-5-5-5-|-9---9-9-7---7-7-|
A|-5-5-5-5-5-5-5-|-7-7-7-7-7-7-7-7-|-5-5-5-5-5-5-5-5-|-9---9-9-7---7-7-|
E|---------------|-5-5-5-5-5-5-5-5-|-3-3-3-3-3-3-3-3-|-7---7-7-5---5-5-|
^^^^^^^^^^^ ^^^^^^^^^^^^^ ^^^^^^^^^^^^^ ^^^ ^^^

verse part two- x2
e|---------------|-----------------|-----------------|-----------------|
B|---------------|-0-0-0-0-0-0-0---|-0-0-0-0-0-0-0-0-|-0-0-0-0-0-0-0-0-|
G|-7-7-7-7-7-7-7-|-0-0-0-0-0-0-0-0-|-0-0-0-0-0-0-0-0-|-0-0-0-0-0-0-0-0-|
D|-7-7-7-7-7-7-7-|-7-7-7-7-7-7-7-7-|-5-5-5-5-5-5-5-5-|-9-9-9-9-7-7-7-7-|
A|-5-5-5-5-5-5-5-|-7-7-7-7-7-7-7-7-|-5-5-5-5-5-5-5-5-|-9-9-9-9-7-7-7-7-|
E|---------------|-5-5-5-5-5-5-5-5-|-3-3-3-3-3-3-3-3-|-7-7-7-7-5-5-5-5-|

repeat intro part two

repeat whole of verse

chorus- same as other version
e|----------------------------------------|-------------------------|
B|----------------------------------------|-------------------------|
G|-7~~~-9~~~--12-11~~~~-11h12p11-9-11-9---|-7~~-9~~-12-11~~-12~~-14-|
D|----------------------------------------|-------------------------|
A|----------------------------------------|-------------------------|
E|----------------------------------------|-------------------------|

then there is no guitar for a bit but some "aaah aaah" type things
in the background, listen to the cd

outro riff- this sorta sounds right, i dont know how many times they play it, play at low volume
e|--------15-14----------------------|
B|--15-----------15------------------|
G|-----14-----------14---------------|
D|-----------------------------------|
A|-----------------------------------|
E|-----------------------------------|

I`m convinced this is atleast 90% right, if you can thing of some changes, tab it out and post it
on this site.
Похожие исполнители:
Фото Lagwagon
Lagwagon
Фото Pennywise
Pennywise
Фото No Use for a Name
No Use for a Name
Фото No Fun At All
No Fun At All
Фото Pulley
Pulley

Опубликовать в блоге/дневнике/жж (html-код)


Опубликовать на форуме (bb-код)


Прямая ссылка на эту страницу