Количество артистов: 43,846 Количество текстов песен: 642,600


Тексты песен выберете букву:
1 - 2 - 3 - 4 - 5 - 6 - 7 - 8 - 9 A B C D E F G H I J K L M N O P Q R S T U V W X Y Z    А Б В Г Д Е Ё Ж З И Й К Л М Н О П Р С Т У Ф Х Ц Ч Ш Щ Ъ Ы Ь Э Ю Я

Галлерея Знаменитостей выберете букву:
A B C D E F G H I J K L M N O P Q R S T U V W X Y Z    А Б В Г Д Е Ё Ж З И Й К Л М Н О П Р С Т У Ф Х Ц Ч Ш Щ Ъ Ы Ь Э Ю Я



фотография Millencolin

Название :

botanic mistress | текст песни и табы (аккорды) для бас гитары и Mp3

Данные: текст песни / слова песни

Жанры :    punk rock   punk   skate punk   swedish   rock

Видео: Millencolin -  botanic mistress | текст песни и табы (аккорды) для бас гитары и Mp3  

Millencolin
Home from Home

song 7

start
g------------------------------------
d------------------------------------
a--3> ...----------------------------
e--------111-------------------------

then ( chorus part )
g------------------------------------
d------------------------------------
a-3-3-3-3--------3-3-3-3-------------
e--------1-1-3-3---------1-1-3-3-----

g------------------------------------
d-----2-2----------------------------
a-3-3------------3-3-------3-3-3-----
e--------1-1-3-3-----1-3-1-----------

Verse
g------------------------------------
d------------------------------------
a-00000-------333-----333------------
e-------11111----1111----1111--------
end of verse
g------------------------------------
d------------------------------------
a------------------------------------
e--3>--------------------------------

after second chorus
g------------------------------------
d------------------------------------
a------------------------------------
e---3--3--111--3--3-1111-55555-33333-

g------------------------------------
d------------------------------------
a------------------------------------
e--1111111-555555-333333-1111111-----

keep playing
E-555555555-33333333-1111111111
and end
E-33333333333333

ends with chorus again

done!
Похожие исполнители:
Фото Lagwagon
Lagwagon
Фото Pennywise
Pennywise
Фото No Use for a Name
No Use for a Name
Фото No Fun At All
No Fun At All
Фото Pulley
Pulley

Опубликовать в блоге/дневнике/жж (html-код)


Опубликовать на форуме (bb-код)


Прямая ссылка на эту страницу