Количество артистов: 43,846 Количество текстов песен: 642,600


Тексты песен выберете букву:
1 - 2 - 3 - 4 - 5 - 6 - 7 - 8 - 9 A B C D E F G H I J K L M N O P Q R S T U V W X Y Z    А Б В Г Д Е Ё Ж З И Й К Л М Н О П Р С Т У Ф Х Ц Ч Ш Щ Ъ Ы Ь Э Ю Я

Галлерея Знаменитостей выберете букву:
A B C D E F G H I J K L M N O P Q R S T U V W X Y Z    А Б В Г Д Е Ё Ж З И Й К Л М Н О П Р С Т У Ф Х Ц Ч Ш Щ Ъ Ы Ь Э Ю Я



фотография Chameleons

Название :

dont fall | текст песни и табы (аккорды) для бас гитары и Mp3

Данные: текст песни / слова песни

Жанры :    new wave   80s   goth rock   post-punk   uk

Видео: Chameleons -  dont fall | текст песни и табы (аккорды) для бас гитары и Mp3  

The Chameleons UK
Don`t Fall
Album: Script of the Bridge
Tabbed by: Rick Ruff (amy.rick@verizon.net)


Intro, Verse, 1st part of Chorus
G -------------------------------------------------------------------------
D -------------------------------------------------------------------------
A --------------------------5-5----5-------------------------5-5-----------
E --2-2-4-2-5-5---5-4-4---4----------2-2-4-2-5-5---5-4-4---4---------------

Second part of Chorus
G -------------------------------------------------------------------------
D -------------------------------------------------------------------------
A --4-5-5-5-5-5-5-5-5-4-4-4--4---------7-7-7-7-7-7-7-7-7-7-7-7-7-7-7-7-----
E -----------------------------5-5-5-7-------------------------------------

2nd Verse, 1st part of Chorus
G -------------------------------------------------------------------------
D -------------------------------------------------------------------------
A --------------------------5-5----5-------------------------5-5-----------
E --2-2-4-2-5-5---5-4-4---4----------2-2-4-2-5-5---5-4-4---4---------------

Second part of Chorus
G -------------------------------------------------------------------------
D -------------------------------------------------------------------------
A --4-5-5-5-5-5-5-5-5-4-4-4--4---------7-7-7-7-7-7-7-7-7-7-7-7-7-7-7-7-----
E -----------------------------5-5-5-7-------------------------------------

Bridge
G -------------------------------------------------------------------------
D -------------------------------------------------------------------------
A --5-5-5-5-5-5-5-5-5-5-5-5-5-5-5-5-7-7-7-7-7-7-7-7-7-7-7-7-7-7-7-7--------
E -------------------------------------------------------------------------

Rest of song
G -------------------------------------------------------------------------
D -------------------------------------------------------------------------
A --4-5-5-5-5-5-5-5-5-4-4-4--4---------7-7-7-7-7-7-7-7-7-7-7-7-7-7-7-7-----
E -----------------------------5-5-5-7-------------------------------------

End
G -------------------------------------------------------------------------
D ------------------------------------9-9--7-7--5-5------------------------
A --4-5-------------54-7----------------------------7--5--7---------------
E -------------------------------------------------------------------------
Похожие исполнители:
Фото The Chameleons
The Chameleons
Фото The Sound
The Sound
Фото Sad Lovers and Giants
Sad Lovers and Giants
Фото The Comsat Angels
The Comsat Angels
Фото For Against
For Against

Опубликовать в блоге/дневнике/жж (html-код)


Опубликовать на форуме (bb-код)


Прямая ссылка на эту страницу