Количество артистов: 43,846 Количество текстов песен: 642,600


Тексты песен выберете букву:
1 - 2 - 3 - 4 - 5 - 6 - 7 - 8 - 9 A B C D E F G H I J K L M N O P Q R S T U V W X Y Z    А Б В Г Д Е Ё Ж З И Й К Л М Н О П Р С Т У Ф Х Ц Ч Ш Щ Ъ Ы Ь Э Ю Я

Галлерея Знаменитостей выберете букву:
A B C D E F G H I J K L M N O P Q R S T U V W X Y Z    А Б В Г Д Е Ё Ж З И Й К Л М Н О П Р С Т У Ф Х Ц Ч Ш Щ Ъ Ы Ь Э Ю Я



фотография Gob

Название :

for the moment | текст песни и табы (аккорды) для гитары и Mp3

Данные: текст песни / слова песни

Жанры :    punk rock   punk   pop punk   canadian   rock

Видео: Gob -  for the moment | текст песни и табы (аккорды) для гитары и Mp3  

GOB
For the Moment
Tabed by ATS
Intro: Play this a few times

-------------9--9--9--9-------------------------------------------------------
-9--9--9--9-14-14-13-13--9--9--9--9--9--9--9--9-------------------------------
13-13-13-13-------------13-13-13-13-------------------------------------------
------------------------------------13-13-13-13-------------------------------
------------------------------------------------------------------------------
------------------------------------------------------------------------------

Verse:

-----------------------------------------------------------------------------
-----------------------------------------------------------------------------
66----------8888888888888888------------------------------------------------- x2
66-66666666-8888888888888888-8-33333333-xxxx---------------------------------
44-66666666-6666666666666666-8-33333333-xxxx---------------------------------
---44444444------------------6-11111111-xxxx---------------------------------


-----------------------------------------------------------------------------
-----------------------------------------------------------------------------
88888888-1010101010101010---------------------------------------------------- x2
88888888-1010101010101010----------------------------------------------------
66666666--8-8-8-8-8-8-8-8----------------------------------------------------
-----------------------------------------------------------------------------
But I cling. . . . .


Chorus:

-----------------------------------------------------------------------------
-----------------------------------------------------------------------------
66-6-6-88888888----------88888888-10-8--6------------------------------------
66-6-6-88888888-33333333-88888888-10-8--6------------------------------------
44-4-4-66666666-33333333-66666666--8-6--4------------------------------------
----------------11111111-----------------------------------------------------
Похожие исполнители:
Фото Another Joe
Another Joe
Фото Treble Charger
Treble Charger
Фото Autopilot Off
Autopilot Off
Фото Allister
Allister
Фото MxPx
MxPx

Опубликовать в блоге/дневнике/жж (html-код)


Опубликовать на форуме (bb-код)


Прямая ссылка на эту страницу