Количество артистов: 43,846 Количество текстов песен: 642,600


Тексты песен выберете букву:
1 - 2 - 3 - 4 - 5 - 6 - 7 - 8 - 9 A B C D E F G H I J K L M N O P Q R S T U V W X Y Z    А Б В Г Д Е Ё Ж З И Й К Л М Н О П Р С Т У Ф Х Ц Ч Ш Щ Ъ Ы Ь Э Ю Я

Галлерея Знаменитостей выберете букву:
A B C D E F G H I J K L M N O P Q R S T U V W X Y Z    А Б В Г Д Е Ё Ж З И Й К Л М Н О П Р С Т У Ф Х Ц Ч Ш Щ Ъ Ы Ь Э Ю Я



фотография Korn

Название :

blind intro | текст песни и табы (аккорды) для гитары и Mp3

Данные: текст песни / слова песни

Жанры :    nu metal   metal   alternative metal   rock   alternative rock

Видео: Korn -  blind intro | текст песни и табы (аккорды) для гитары и Mp3  

ARTIST: KORN
SONG:BLIND (INTRO)
TAB BY;JDLM

X-2--------------------2--------------------
X-3-X3-----------------3-X3-----------------
X-2--------------------2--------------------
X-------------------------------------------
X-------------------------------------------
X------2-4-2-5--2-4-2-5-----2-4-2-5--2-4-2-5

X-2---------------------2-------------------
X-3-X3------------------3-X3----------------
X-2---------------------2-------------------
X-------------------------------------------
X-------------------------------------------
X------2-4-2-5--2-4-2-5-----2-4-2-5--2-4-2-5
Похожие исполнители:
Фото KoЯn
KoЯn
Фото Jonathan Davis
Jonathan Davis
Фото Head
Head
Фото Limp Bizkit
Limp Bizkit
Фото Slipknot
Slipknot

Опубликовать в блоге/дневнике/жж (html-код)


Опубликовать на форуме (bb-код)


Прямая ссылка на эту страницу